Алфавитный указатель

Аккорды к песне ​Виталий Дубинин — Дети дождя

Шрифт
13
Тональность
0
Прокрутка
0
Аппликатуры к аккордам: 
 
[Вступление]: 
|-------------------------------------------------| 
|-------3--1-0------------------------------------| 
|------0-------2--------0-2-4--2--0---------------| 
|----2---------------0---------------2---5--------| 
|-----------------0-------------------------------| 
|-0------------2--------0-2-3--2--0--5-----3--2-3-| 
 
|-------------------------------------------------| 
|-------3--1-0------------------------------------| 
|------0-------2--------0-2-4--2--0--5------7-----| 
|----2---------------0------------------5-7-------| 
|-----------------0-------------------------------| 
|-0------------2--------0-2-3--2--0--5----7-------| 
 
|-------------------------------------------------| 
|-------3--1-0------------------------------------| 
|------0-------2--------0-2-4--2--0---------------| 
|----2---------------0---------------2---5--------| 
|-----------------0-------------------------------| 
|-0------------2--------0-2-3--2--0--5-----3--2-3-| 
 
|---------------------------------------12-| 
|--------0---------------------------12----| 
|------0--------2--0--------------12-------| 
|----2------4-5-4--2--4--2-----------------| 
|---------------------5--3-----------------| 
|-0----------------------------------------| 
 
[Куплет]:  
|-------------0----------------0--------------0-----------------| 
|-----------0----------------0--------------0----------1--------| 
|---------0--------------0----------------0----------0----------| 
|-------2--------------2----------------2----------2------------| 
|-----2--------------2----------------2----------0--------------| 
|-0--------------2----------------3----------------------3--2-3-| 
 Em            EmF#              Em/G            Am7             
 
|-------------0----------------0--------------0---------------| 
|-----------0----------------0--------------0----------1--1/3-| 
|---------0--------------0----------------0----------0--------| 
|-------2--------------2----------------2----------2------2/4-| 
|-----2--------------2----------------2----------0------------| 
|-0--------------2----------------3---------------------------| 
 Em            EmF#              Em/G            Am7           
 
|-------------0----------------0--------------0-----------------| 
|-----------0----------------0--------------0----------1--------| 
|---------0--------------0----------------0----------0----------| 
|-------2--------------2----------------2----------2------------| 
|-----2--------------2----------------2----------0--------------| 
|-0--------------2----------------3----------------------3--2-3-| 
 Em            EmF#              Em/G            Am7               
 
|-------------0----------------0-----------------------------| 
|-----------0----------------0-------1-------7-------7-------| 
|---------0--------------0-----------2---------8-7-----8-7---| 
|-------2--------------2-------------2-------------7-------7-| 
|-----2--------------2---------------0-----------------------| 
|-0--------------2-------------------------------------------| 
 Em            EmF#                  Am7     D                 
 
Em EmF#                    Em/G Am7 
Я люблю закат, но жду рассвета 
Em EmF#                    Em/G Am7 
Может, новый день изменит мир 
Em EmF#                  Em/G            Am7 
Пронесётся над землёй холодный свежий ветер,  
Em EmF#                         Am D 
Мы поймём, что значит быть людьми. 
 
 
[Бридж]: 
|----0-----0-----0-----0-----0---|----0-----0-----0-----0-----0---| 
|------1-----1-----1-----1-----1-|------3-----3-----3-----3-----3-| 
|-2------2-----2-----2-----2-----|-4------4-----4-----4-----4-----| 
|--------------------------------|--------------------------------| 
|--------------------------------|--------------------------------| 
|--------------------------------|--------------------------------| 
 Am                               Bm 
 
|----0-----0-----0-----0-----0---|----0-----0----------------------| 
|------1-----1-----1-----1-----1-|------3-----3----5-4-----5-4-----| 
|-2------2-----2-----2-----2-----|-4------4-----4----------------| 
|--------------------------------|---------------------5-4-----5-4-| 
|--------------------------------|---------------------------------| 
|--------------------------------|---------------------------------| 
 Am                               Bm               B 
 
 
Am                     Bm 
Разольётся светом безмятежность, 
Am                         Bm B 
Прочь уйдёт предчувствие беды. 
 
 
[Припев]: 
    Em       C       G D 
Мы все лишь дети дождя, 
   Em    C         G       D 
Мы дети зимней грозы и ветров   
  Em       C        G D 
Однажды вспомним себя, 
  Am 
И память вновь мечты подарит, 
C              Bm        Em 
Вновь мечты подарит и любовь. 
 
 
Em             Em/F#        Em/G Am7 
Пусть над нами будет только небо, 
Em    Em/F#        Em/G Am7 
Удивляя землю чистотой 
Em               Em/F#         Em/G          Am7 
Пусть нас солнце как всегда с утра лучом разбудит, 
Em         Em/F#      Am D 
Ведь оно дарует нам покой. 
 
Am                            Bm 
Пусть наш мир забудет бег по кругу, 
Am                      Bm B 
Наслаждаясь хрупкой тишиной. 
 
    Em       C       G D 
Мы все лишь дети дождя, 
   Em    C         G       D 
Мы дети зимней грозы и ветров   
  Em       C        G D 
Однажды вспомним себя, 
  Am 
И память вновь мечты подарит, 
C              Bm        C 
Вновь мечты подарит и любовь. 
 
 
Проигрыш (играть 2 раза): 
|-----------------------------------------------------------------| 
|---------1---------------1---------------3---------------3-------| 
|-----0-------0-------0-------0-------0-------0-------0-------0---| 
|---2---2---2---2---2---2---2---2---4---4---4---4---4---4---4---4-| 
|-3---------------3---------------5---------------5---------------| 
|-----------------------------------------------------------------| 
  C                               D 
 
|-----------------------------------------------------------------| 
|---------3---------------3---------------0-----------------------| 
|-----0-------0-------0-------0-------0-------0-------------------| 
|---4---4---4---4---4---4---4---4---2---2---2---2-----5-------4---| 
|-2---------------2---------------------------------7---7---5---5-| 
|---------------------------------0---------------7-------5-------| 
 Bm                               Em              Em      D 
 
|-----------------------------------------------------------------| 
|---------1---------------1---------------3---------------3-------| 
|-----0-------0-------0-------0-------0-------0-------0-------0---| 
|---2---2---2---2---2---2---2---2---4---4---4---4---4---4---4---4-| 
|-3---------------3---------------5---------------5---------------| 
|-----------------------------------------------------------------| 
  C                               D 
 
Em 
 
 
Am                          Bm 
Каждый день я жду от жизни чуда, 
Am                     Bm B 
Только ей нет дела до меня...  

Аппликатуры аккордов
Am
C
G
Em
D
Hm
2
Em/F#
Em/G
B
2
Am7
Как поет Виталий Дубинин

© 2017 – 2023 lalatracker.com

Если есть что сказать, пиши сюда lalatracker.help@gmail.com